Viele der hier angegebenen Griffe spiele ich in meinen Liedern oft leicht abgeändert oder vereinfacht...

 

Grundgriffe

    A   Am  Am7  E    Em   Em7   C    C7    D   Dm  Hm  F    G

E--------------------------------------2---1---2---1--3

H--2--1---3-------------3----1---3----3---3---3---1---

G--2--2---2---1-----------------------2---2---4---2---

D--2--2---2---2----2----2---2---2------------4---3---

A--------------2----2----2---3---3----------------3--2

E------------------------------------------------------3

 

Barre

       F         G        A           H         C       D        E*

E--1-----3-----5------2-----3------5-----7-

H--1-----3-----5------2-4---3-5---5-7---7-9

G--1-2---3-4---5-6---2-4---3-5---5-7---7-9

D--1-3---3-5---5-7---2-4---3-5---5-7---7-9

A--1-3---3-5---5-7---2------3-----5-----7-

E--1-----3-----5------2------3-----5-----7-